Smashing Pumpkins - Bullet With Butterfly Wings (var.13) Guitar tab download free or play online

Guitar tab for Bullet With Butterfly Wings (var.13) by Smashing Pumpkins free download and read or play online: file .txt, 8 kb has 108 views and 0 downloads.

Download guitar tab "Bullet With Butterfly Wings (var.13)" (Smashing Pumpkins)

Smashing Pumpkins Band name
Bullet With Butterfly Wings Song name
Guitar tabs Tab type
8 kb File size
.TXT File type
108 views
0 downloads
 
Are you robot?

Bullet With Butterfly Wings (var.13) guitar tab read and play online

                    Bullet With Buterfly Wings**
ALT version from Machina-era shows
(preferably the MusiquePlus show in begging of 00)
tabbed by: John Blanchette
http://www.ratinacage.com
pumpkinhead333@lycos.com
Tuning: C F A# D# G C
-=-=-=-=-=-=-=-=-=-=-=-=-=-=-=-=-=-=-=-=-=-=-=-=-=-=-=-=-=-=-=-=-


Bass Intro/Verse (guitars tacet):
			      11x
F|-2-2-0-2-2------------0-0-0-0-|
C|----------3-3-0-0-0-0---------|


Pre-Chorus:			 4x
|(0-0-0-0-0-0-0-0-0-0-0-0-0-0-0-0)|
|(0-0-0-0-0-0-0-0-0-0-0-0-0-0-0-0)|
|-4-4-4-4-4-4-4-4-4-4-4-4-4-4-4-4-|
|-4-4-4-4-4-4-4-4-4-4-4-4-4-4-4-4-|
|-2-2-2-2-2-2-2-2-2-2-2-2-0-0-0-0-|
|-------0-0-0-0-3-3-3-3-3---------|

|(0-0-0-0-0-0-0-0-0-0-0-0-0-0-0-0)|
|(0-0-0-0-0-0-0-0-0-0-0-0-0-0-0-0)|
|-4-4-4-4-4-4-4-4-4-4-4-4-4-4-4-4-|
|-4-4-4-4-4-4-4-4-4-4-4-4-4-4-4-4-|
|-2-2-2-2-2-2-2-0-0-0-0-0-0-0-0-0-|
|-------3-3-3-3-------------------|


Chorus:
(guitar 1)					       4x
|-----------3--3------0--0------0--0------0------3------|
|-----------3--3------3--3------0--0------0------3------|
|-4--4------0--0------2--2------2--2------0------0------|
|-4--4------0--0------0--0------2--2------2------0------|
|-2--2------2--2----------------0--0------2------2------|
|-----------3--3--------------------------0------3------|
(guitar 2)					    4x
|----------------------------------------------------|
|----------------------------------------------------|
|----------------6--7--7-----------------------------|
|-9--9--7--5--5--6--7--7--5--7--7--//14\\---5--------|
|-9--9--7--5--5--4--5--5--5--7--7--//14\\---5--------|
|-7--7--5--3--3-----------3--5--5--//12\\---3--------|

|--------------|
|--------------|
|--------------|
|-4--4--4/7~~~-|
|-4--4--4/7~~~-|
|-2--0--2/5~~~-|



Verse 2:
(bass, g1 tacet)	      9x
|-2-2-0-2-2------------0-0-0-0-|
|----------3-3-0-0-0-0---------|

(g2)   4x
|-------|
|-------|
|-(2)/4-|
|-------|
|-------|
|-------|
                                     3x
|------0-----0-------0----------------|
|----0---------0-------0--------------|
|-14-----12------11-------12h14-------|
|-------------------------------12h14-|
|-------------------------------------|
|-------------------------------------|
                                 5x
|---------------------------------|
|-0-0-0-0-0-0-0-0-0-0-0-0-0-0-0-0-|
|-4-4-4-4-4-4-4-4-4-4-4-4-4-4-4-4-|
|---------------------------------|
|---------------------------------|
|---------------------------------|




Pre-Chorus 2:			 4x
|(0-0-0-0-0-0-0-0-0-0-0-0-0-0-0-0)|
|(0-0-0-0-0-0-0-0-0-0-0-0-0-0-0-0)|
|-4-4-4-4-4-4-4-4-4-4-4-4-4-4-4-4-|
|-4-4-4-4-4-4-4-4-4-4-4-4-4-4-4-4-|
|-2-2-2-2-2-2-2-2-2-2-2-2-0-0-0-0-|
|-------0-0-0-0-3-3-3-3-3---------|

|(0-0-0-0-0-0-0-0-0-0-0-0-0-0-0-0)|
|(0-0-0-0-0-0-0-0-0-0-0-0-0-0-0-0)|
|-4-4-4-4-4-4-4-4-4-4-4-4-4-4-4-4-|
|-4-4-4-4-4-4-4-4-4-4-4-4-4-4-4-4-|
|-2-2-2-2-2-2-2-0-0-0-0-0-0-0-0-0-|
|-------3-3-3-3-------------------|




CHORUS 2
(g1)						    4x
|-----------3--3------0--0------0--0------0------3---|
|-----------3--3------3--3------0--0------0------3---|
|-4--4------0--0------2--2------2--2------0------0---|
|-4--4------0--0------0--0------2--2------2------0---|
|-2--2------2--2----------------0--0------2------2---|
|-----------3--3--------------------------0------3---|
(g2)						    4x
|----------------------------------------------------|
|----------------------------------------------------|
|-----------------6---7--7---------------------------|
|-9--9--7---5--5--6---7--7--5---7--7---//14\\----5---|
|-9--9--7---5--5--4---5--5--5---7--7---//14\\----5---|
|-7--7--5---3--3------------3---5--5---//12\\----3---|


(g1)
|-----------3--3------0--0------0--------|
|-----------3--3------3--3------0--------|
|-4--4------0--0------2--2------2--------|
|-4--4------0--0------0--0------2--------|
|-2--2------2--2----------------0--------|
|-----------3--3-------------------------|
(g2)
|-------------------------------------|
|-------------------------------------|
|----------------6--7--7--------------|
|-9--9--7--5--5--6--7--7--5--7--7-----|
|-9--9--7--5--5--4--5--5--5--7--7-----|
|-7--7--5--3--3-----------3--5--5-----|




Interlude/Bridge:
(g1)			     11x
|------------------------------|
|------------------------------|
|------------------------0~~---|
|--6-6--6-9~~-----6-6--6-2~~---|
|--6-6--6-9~~-----6-6--6-2~~---|
|--4-4--0-7~~-----4-4--0-0~~---|
(g2 the same with lots of weird wahh-ing)

|---------------------|
|---------------------|
|---------------------|
|--6-6--6-9~~---8~~~---|
|--6-6--6-9~~---8~~~---|
|--4-4--0-7~~---6~~~---|




Chorus 3:
(g1)						3x
|-----0-------0-------0-------0------------------|
|-----0-------3-------3-------0-------0------0---|
|-------0-------0---2---0-------0--------------0-|
|---4-------0-----0---------2--------------0-----|
|-2-----------------------0---------2------------|
|---------3-----------------------0-----3--------|

|-----0-------0-------0-------0----------------3~~----|
|-----0-------3-------3-------0----------------3~~----|
|-------0-------0---2---0-------0--------------0~~----|
|---4-------0-----0---------2--------//14\\----0~~----|
|-2-----------------------0----------//14\\----2~~----|
|---------3--------------------------//12\\----3~~----|

(g2, after 2x of g1 above)
|-----0-------0-------0-------------------|
|-------0-------0-------0-----------------|
|-14------12------11------12p11\9--7/9----|
|-----------------------------------------|
|-----------------------------------------|
|-----------------------------------------|

|-----0-------0-------0-------------------------------|
|-------0-------0-------0-----------------------------|
|-14------12------11------12p11\9---------------------|
|------------------------------------//14\\----5~~----|
|------------------------------------//14\\----5~~----|
|------------------------------------//12\\----3~~----|



Chorus 4/Outro
(g1)   lots of times depending on version your playing
|-----------3--3------0--0------0--0--------|
|-----------3--3------3--3------0--0--------|
|-4--4------0--0------2--2------2--2----4//-|
|-4--4------0--0------0--0------2--2----4//-|
|-2--2------2--2----------------0--0----1//-|
|-----------3--3----------------------------|


(g2)
|-------------------------------------------|
|-------------------------------------------|
|-----------------6---7--7------------------|
|-9--9--7---5--5--6---7--7--5---7--7----8//-|
|-9--9--7---5--5--4---5--5--5---7--7----8//-|
|-7--7--5---3--3------------3---5--5----6//-|
then g2 moves on to this,
while g1 still playing the same chords above:
(g2)				      4x
|--------------------------------------|
|--------------------------------------|
|-2h4--4p2--2h4--4p2--2h4-4b6rb6r4--2--|
|--------------------------------------|
|--------------------------------------|
|--------------------------------------|
						 2x
|-------------------------------------------------|
|-------------------------------------------------|
|-14h16-16p14-14h16-16p14-14h16-16b18rb18r16--14--|
|-------------------------------------------------|
|-------------------------------------------------|
|-------------------------------------------------|

|-------------------------|----------------------|-------------------|------------|
|-------------------------|----------------------|-------------------|------------|
|-14h16-16p14-14\12-12\11-|-11/12-12\11-11\9-9\7-|-11\9-9/11-9\7-7\6-|-7\6-6\4-2--|
|-------------------------|----------------------|-------------------|------------|
|-------------------------|----------------------|-------------------|------------|
|-------------------------|----------------------|-------------------|------------|

END ON THIS:
(g1)
|-------------------------|
|-------------------------|
|-------------------------|
|-2----------5------4\\\\-|
|-2----------5------4\\\\-|
|-0----------3------2\\\\-|
(g2)
|-------------------------|
|-10b12r10p8--------7~~~~-|
|------------9~~~~--------|
|-------------------------|
|-------------------------|
|-------------------------|                    

Comments for guitar tab — Bullet With Butterfly Wings (var.13) (Smashing Pumpkins)

Other Bullet With Butterfly Wings (var.13) by Smashing Pumpkins tabs:

Last viewed Smashing Pumpkins tabs: