Smashing Pumpkins - Bullet With Butterfly Wings (var.16) Guitar tab download free or play online

Guitar tab for Bullet With Butterfly Wings (var.16) by Smashing Pumpkins free download and read or play online: file .txt, 1.41 kb has 68 views and 0 downloads.

Download guitar tab "Bullet With Butterfly Wings (var.16)" (Smashing Pumpkins)

Smashing Pumpkins Band name
Bullet With Butterfly Wings Song name
Guitar tabs Tab type
1.41 kb File size
.TXT File type
68 views
0 downloads
 
Are you robot?

Bullet With Butterfly Wings (var.16) guitar tab read and play online

                    Band: Smashing Pumpkins

Song: Bullet with butterfly wings

Album: Mellon Collie & The Infinite Sadness

Tuning: You could use normal tuning (E,A,D,G,B,E)

but if you want to have that corgan-ess you want

to flat it (Eb,Ab,Db,Gb,Bb,Eb)

Most of the versions are crap, this is, I swear to

you, the correct version :)



verse

-------------------------------------------------

-------------------------------------------------

------------------------4-4-4-4--4-4--4-4-4-4-4--

------------------------4-4-4-4--4-4--4-4-4-4-4--

------------------------2-2-0-2--0-0--0-0-0-0-0--

---------------------------------3-3-------------

the world is a vampire                     sent to drain



secret destroyers, hold you up to the flame

and what do I get? For my pain

Betrayed desires, and a piece of game

even though i know i suppose ill show

all my cool and cold, like old job...



chorus

------------------------------------3-3-3

------------------------------------3-3-3

--4-4-------------7-7------------2--0-0-0

--4-4-----5-5-----7-7--7-7--2-2--2--0-0-0

--2-2--0--5-5--0--5-5--7-7--2-2-----2-2-2

----------3-3----------5-5----------3-3-3



despite all my rage

i am still just a rat in a cage

and someone will say

what is lost can never be saved



oh yeah, this is straight out the book. 

if you want the interlude or solo

the book is resting on my lap...

billycorgan266@yahoo.co.uk                    

Comments for guitar tab — Bullet With Butterfly Wings (var.16) (Smashing Pumpkins)

Other Bullet With Butterfly Wings (var.16) by Smashing Pumpkins tabs:

Last viewed Smashing Pumpkins tabs: